Ads By Smowtion

Wednesday, May 4, 2011

Bhegi Bhegi-JAMNES

Exact 101% Correct Scale
Em..............D................C................ .............B....................Em


Tabbs !
bheegi bheegi si hai....raaten bheegi bheegi yaaden........bheegi bheegi baaten.....bheegi bheegi
|--7-h5-7-7-7-7--7-h5-7-7-7-7------7-h5--7-7-7-7----------7-h5--7-7-7-7------
|----------------------------------------------------------------------------

aankhon mein kaisi nami hai
|----7-7-7-7-8-3-7-5---------------------------------------------------------
|----------------------------------------------------------------------------

aah ha ha ha aah ha
|---5-3-2-0-7--5-------------------------------------------------------------
|----------------------------------------------------------------------------

sapnon ka saya palkon pe aya pal mein hasaya pal mein rulaya
|--7-h5-7-7-7-7--7-h5-7-7-7-7------7-h5--7-7-7-7----------7-h5--7-7-7-7------
|----------------------------------------------------------------------------

phir bhi yeh kaisi kami hai
|----7-7-7-7-8-3-7-5---------------------------------------------------------
|----------------------------------------------------------------------------

aah ha ha ha aah ha
|---5-3-2-0-7--5-------------------------------------------------------------
|----------------------------------------------------------------------------

na jaane koi ........kaisi hai yeh zindagaani zindgaani
|---3-3-2-3---3-3-3-2-0-0-2-2------------------------------------------------
|-0-------------------------------5-3-5-5------------------------------------

Humari adhuri kahaani
|--5-5-5-4-4-4--7-7-h5-------------------------------------------------------
|----------------------------------------------------------------------------

Stanza 1 (Play Exactly Like Intro Part !)

aadhi aadhi jaagi aadhi aadhi soyi
aankhen yeh teri toh lagta hai royi
lekar ke naam hamara
aah ha ha ha aah ha
aah ha ha ha aah ha

rutha rutha rab chhuta chhuta sab
toota toota dil tere bina ab
kaise ho jeena ganwara
aah ha ha ha aah ha
aah ha ha ha aah ha
na jaane koi ........kaisi hai yeh zindagaani zindgaani
Humari adhuri kahaani


End Part (Play Exactly Like Intro Part)

bheegi bheegi si hai raaten
bheegi bheegi yaaden
bheegi bheegi baaten
bheegi bheegi aankhon mein kaisi nami hai
aah ha ha ha aah ha
aah ha ha ha aah ha

na jaane koi ........kaisi hai yeh zindagaani zindgaani
Humari adhuri kahaani
na jaane koi - 2 hamari adhuri kahani
na jaane koi yeh zindagaani zindgaani
kahaani adhuri kahaani

na na na....

No comments:

Post a Comment